Feb 20, 2012

Airtel Guitar Tab


Before Starting The Tab, Must Listen The Video
e|------------0-----------------------------------------------------------
B|----------------0-1-0---------0-------0-----------0-1-0------------
G|-2-2-2-2---------------2-0-------2-------2-0-2-----------2-0-----
D|---------------------------------------------------------------------2--

e|--0---------------------------------------------------------------
B|-------0-3-0---------------------------0-1---------------------
G|----------------2-0------------0-2---------------2-------------
D|------------------------2-2--------------------------------------

e|------------0---------------------------------------------------------
B|-1-0----------0-1-0----------0----0------------0-1-0-------------
G|-------2----------------2-0-----2-----2-0-2------------2-0-------
D|-------------------------------------------------------------------2---

B|------0-1-0--------0--------------------------
G|-2-------------2---------2-0-2-0-------------
D|----------------------------------------2-2----

2 comments:

How's the Tab, Need Your Feedback..